  0
SECTION
  2
HEADER
  9
$ACADVER
  1
AC1015
  9
$ACADMAINTVER
 70
     6
  9
$DWGCODEPAGE
  3
ANSI_1254
  9
$INSBASE
 10
0.0
 20
0.0
 30
0.0
  9
$EXTMIN
 10
0.0
 20
0.0
 30
0.0
  9
$EXTMAX
 10
279.4
 20
215.9
 30
0.0
  9
$LIMMIN
 10
0.0
 20
0.0
  9
$LIMMAX
 10
279.4
 20
215.9
  9
$ORTHOMODE
 70
     0
  9
$REGENMODE
 70
     1
  9
$FILLMODE
 70
     1
  9
$QTEXTMODE
 70
     0
  9
$MIRRTEXT
 70
     1
  9
$LTSCALE
 40
1.0
  9
$ATTMODE
 70
     1
  9
$TEXTSIZE
 40
3.5
  9
$TRACEWID
 40
1.0
  9
$TEXTSTYLE
  7
Standard
  9
$CLAYER
  8
0
  9
$CELTYPE
  6
ByLayer
  9
$CECOLOR
 62
   256
  9
$CELTSCALE
 40
1.0
  9
$DISPSILH
 70
     0
  9
$DIMSCALE
 40
1.0
  9
$DIMASZ
 40
3.5
  9
$DIMEXO
 40
1.0
  9
$DIMDLI
 40
3.75
  9
$DIMRND
 40
0.0
  9
$DIMDLE
 40
0.0
  9
$DIMEXE
 40
1.0
  9
$DIMTP
 40
0.0
  9
$DIMTM
 40
0.0
  9
$DIMTXT
 40
3.5
  9
$DIMCEN
 40
2.5
  9
$DIMTSZ
 40
0.0
  9
$DIMTOL
 70
     0
  9
$DIMLIM
 70
     0
  9
$DIMTIH
 70
     1
  9
$DIMTOH
 70
     1
  9
$DIMSE1
 70
     0
  9
$DIMSE2
 70
     0
  9
$DIMTAD
 70
     1
  9
$DIMZIN
 70
     0
  9
$DIMBLK
  1

  9
$DIMASO
 70
     1
  9
$DIMSHO
 70
     1
  9
$DIMPOST
  1

  9
$DIMAPOST
  1

  9
$DIMALT
 70
     0
  9
$DIMALTD
 70
     3
  9
$DIMALTF
 40
0.0393700787
  9
$DIMLFAC
 40
1.0
  9
$DIMTOFL
 70
     1
  9
$DIMTVP
 40
0.0
  9
$DIMTIX
 70
     0
  9
$DIMSOXD
 70
     0
  9
$DIMSAH
 70
     0
  9
$DIMBLK1
  1

  9
$DIMBLK2
  1

  9
$DIMSTYLE
  2
ISO-25
  9
$DIMCLRD
 70
     0
  9
$DIMCLRE
 70
     0
  9
$DIMCLRT
 70
     0
  9
$DIMTFAC
 40
1.0
  9
$DIMGAP
 40
1.524
  9
$DIMJUST
 70
     0
  9
$DIMSD1
 70
     0
  9
$DIMSD2
 70
     0
  9
$DIMTOLJ
 70
     0
  9
$DIMTZIN
 70
     0
  9
$DIMALTZ
 70
     0
  9
$DIMALTTZ
 70
     0
  9
$DIMUPT
 70
     0
  9
$DIMDEC
 70
     2
  9
$DIMTDEC
 70
     2
  9
$DIMALTU
 70
     2
  9
$DIMALTTD
 70
     3
  9
$DIMTXSTY
  7
Standard
  9
$DIMAUNIT
 70
     0
  9
$DIMADEC
 70
     2
  9
$DIMALTRND
 40
0.0
  9
$DIMAZIN
 70
     0
  9
$DIMDSEP
 70
    44
  9
$DIMATFIT
 70
     3
  9
$DIMFRAC
 70
     0
  9
$DIMLDRBLK
  1

  9
$DIMLUNIT
 70
     2
  9
$DIMLWD
 70
    -2
  9
$DIMLWE
 70
    -2
  9
$DIMTMOVE
 70
     0
  9
$LUNITS
 70
     2
  9
$LUPREC
 70
     2
  9
$SKETCHINC
 40
1.0
  9
$FILLETRAD
 40
10.0
  9
$AUNITS
 70
     0
  9
$AUPREC
 70
     2
  9
$MENU
  1
.
  9
$ELEVATION
 40
0.0
  9
$PELEVATION
 40
0.0
  9
$THICKNESS
 40
0.0
  9
$LIMCHECK
 70
     0
  9
$CHAMFERA
 40
0.0
  9
$CHAMFERB
 40
0.0
  9
$CHAMFERC
 40
0.0
  9
$CHAMFERD
 40
0.0
  9
$SKPOLY
 70
     0
  9
$TDCREATE
 40
2460608.530360556
  9
$TDUCREATE
 40
2460608.405360556
  9
$TDUPDATE
 40
2460608.53036066
  9
$TDUUPDATE
 40
2460608.40536066
  9
$TDINDWG
 40
0.0000000116
  9
$TDUSRTIMER
 40
0.0000000116
  9
$USRTIMER
 70
     1
  9
$ANGBASE
 50
0.0
  9
$ANGDIR
 70
     0
  9
$PDMODE
 70
     0
  9
$PDSIZE
 40
-1.0
  9
$PLINEWID
 40
0.0
  9
$SPLFRAME
 70
     0
  9
$SPLINETYPE
 70
     6
  9
$SPLINESEGS
 70
     8
  9
$HANDSEED
  5
D2
  9
$SURFTAB1
 70
     6
  9
$SURFTAB2
 70
     6
  9
$SURFTYPE
 70
     6
  9
$SURFU
 70
     6
  9
$SURFV
 70
     6
  9
$UCSBASE
  2

  9
$UCSNAME
  2

  9
$UCSORG
 10
0.0
 20
0.0
 30
0.0
  9
$UCSXDIR
 10
1.0
 20
0.0
 30
0.0
  9
$UCSYDIR
 10
0.0
 20
1.0
 30
0.0
  9
$UCSORTHOREF
  2

  9
$UCSORTHOVIEW
 70
     0
  9
$UCSORGTOP
 10
0.0
 20
0.0
 30
0.0
  9
$UCSORGBOTTOM
 10
0.0
 20
0.0
 30
0.0
  9
$UCSORGLEFT
 10
0.0
 20
0.0
 30
0.0
  9
$UCSORGRIGHT
 10
0.0
 20
0.0
 30
0.0
  9
$UCSORGFRONT
 10
0.0
 20
0.0
 30
0.0
  9
$UCSORGBACK
 10
0.0
 20
0.0
 30
0.0
  9
$PUCSBASE
  2

  9
$PUCSNAME
  2

  9
$PUCSORG
 10
0.0
 20
0.0
 30
0.0
  9
$PUCSXDIR
 10
1.0
 20
0.0
 30
0.0
  9
$PUCSYDIR
 10
0.0
 20
1.0
 30
0.0
  9
$PUCSORTHOREF
  2

  9
$PUCSORTHOVIEW
 70
     0
  9
$PUCSORGTOP
 10
0.0
 20
0.0
 30
0.0
  9
$PUCSORGBOTTOM
 10
0.0
 20
0.0
 30
0.0
  9
$PUCSORGLEFT
 10
0.0
 20
0.0
 30
0.0
  9
$PUCSORGRIGHT
 10
0.0
 20
0.0
 30
0.0
  9
$PUCSORGFRONT
 10
0.0
 20
0.0
 30
0.0
  9
$PUCSORGBACK
 10
0.0
 20
0.0
 30
0.0
  9
$USERI1
 70
     0
  9
$USERI2
 70
     0
  9
$USERI3
 70
     0
  9
$USERI4
 70
     0
  9
$USERI5
 70
     0
  9
$USERR1
 40
0.0
  9
$USERR2
 40
0.0
  9
$USERR3
 40
0.0
  9
$USERR4
 40
0.0
  9
$USERR5
 40
0.0
  9
$WORLDVIEW
 70
     1
  9
$SHADEDGE
 70
     3
  9
$SHADEDIF
 70
    70
  9
$TILEMODE
 70
     1
  9
$MAXACTVP
 70
    64
  9
$PINSBASE
 10
0.0
 20
0.0
 30
0.0
  9
$PLIMCHECK
 70
     0
  9
$PEXTMIN
 10
1.0000000000E+20
 20
1.0000000000E+20
 30
1.0000000000E+20
  9
$PEXTMAX
 10
-1.0000000000E+20
 20
-1.0000000000E+20
 30
-1.0000000000E+20
  9
$PLIMMIN
 10
0.0
 20
0.0
  9
$PLIMMAX
 10
420.0
 20
297.0
  9
$UNITMODE
 70
     0
  9
$VISRETAIN
 70
     1
  9
$PLINEGEN
 70
     0
  9
$PSLTSCALE
 70
     1
  9
$TREEDEPTH
 70
  3020
  9
$CMLSTYLE
  2
Standard
  9
$CMLJUST
 70
     0
  9
$CMLSCALE
 40
20.0
  9
$PROXYGRAPHICS
 70
     1
  9
$MEASUREMENT
 70
     1
  9
$CELWEIGHT
370
    -1
  9
$ENDCAPS
280
     0
  9
$JOINSTYLE
280
     0
  9
$LWDISPLAY
290
     1
  9
$INSUNITS
 70
     4
  9
$HYPERLINKBASE
  1

  9
$STYLESHEET
  1

  9
$XEDIT
290
     1
  9
$CEPSNTYPE
380
     0
  9
$PSTYLEMODE
290
     1
  9
$FINGERPRINTGUID
  2
{beaa73b0-104f-4c04-9097-66d525117652}
  9
$VERSIONGUID
  2
{FAEB1C32-E019-11D5-929B-00C0DF256EC4}
  9
$EXTNAMES
290
     1
  9
$PSVPSCALE
 40
0.0
  9
$OLESTARTUP
290
     0
  0
ENDSEC
  0
SECTION
  2
CLASSES
  0
CLASS
  1
ACDBDICTIONARYWDFLT
  2
AcDbDictionaryWithDefault
  3
ObjectDBX Classes
 90
        0
280
     0
281
     0
  0
CLASS
  1
VISUALSTYLE
  2
AcDbVisualStyle
  3
ObjectDBX Classes
 90
     4095
280
     0
281
     0
  0
CLASS
  1
MATERIAL
  2
AcDbMaterial
  3
ObjectDBX Classes
 90
     1153
280
     0
281
     0
  0
CLASS
  1
SCALE
  2
AcDbScale
  3
ObjectDBX Classes
 90
     1153
280
     0
281
     0
  0
CLASS
  1
TABLESTYLE
  2
AcDbTableStyle
  3
ObjectDBX Classes
 90
     4095
280
     0
281
     0
  0
CLASS
  1
MLEADERSTYLE
  2
AcDbMLeaderStyle
  3
ACDB_MLEADERSTYLE_CLASS
 90
     4095
280
     0
281
     0
  0
CLASS
  1
SUN
  2
AcDbSun
  3
SCENEOE
 90
     1153
280
     0
281
     0
  0
CLASS
  1
ACDBPLACEHOLDER
  2
AcDbPlaceHolder
  3
ObjectDBX Classes
 90
        0
280
     0
281
     0
  0
CLASS
  1
LAYOUT
  2
AcDbLayout
  3
ObjectDBX Classes
 90
        0
280
     0
281
     0
  0
ENDSEC
  0
SECTION
  2
TABLES
  0
TABLE
  2
VPORT
  5
8
330
0
100
AcDbSymbolTable
 70
     1
  0
VPORT
  5
29
330
8
100
AcDbSymbolTableRecord
100
AcDbViewportTableRecord
  2
*Active
 70
     0
 10
0.0
 20
0.0
 11
1.0
 21
1.0
 12
139.7
 22
107.95
 13
0.0
 23
0.0
 14
10.0
 24
10.0
 15
10.0
 25
10.0
 16
0.0
 26
0.0
 36
1.0
 17
0.0
 27
0.0
 37
0.0
 40
215.9
 41
1.2941176471
 42
50.0
 43
0.0
 44
0.0
 50
0.0
 51
0.0
 71
     0
 72
  2000
 73
     1
 74
     3
 75
     0
 76
     0
 77
     0
 78
     0
281
     0
 65
     1
110
0.0
120
0.0
130
0.0
111
1.0
121
0.0
131
0.0
112
0.0
122
1.0
132
0.0
 79
     0
146
0.0
  0
ENDTAB
  0
TABLE
  2
LTYPE
  5
5
330
0
100
AcDbSymbolTable
 70
     6
  0
LTYPE
  5
14
330
5
100
AcDbSymbolTableRecord
100
AcDbLinetypeTableRecord
  2
ByBlock
 70
     0
  3

 72
    65
 73
     0
 40
0.0
  0
LTYPE
  5
15
330
5
100
AcDbSymbolTableRecord
100
AcDbLinetypeTableRecord
  2
ByLayer
 70
     0
  3

 72
    65
 73
     0
 40
0.0
  0
LTYPE
  5
16
330
5
100
AcDbSymbolTableRecord
100
AcDbLinetypeTableRecord
  2
Continuous
 70
     0
  3
Solid line
 72
    65
 73
     0
 40
0.0
  0
LTYPE
  5
6E
330
5
100
AcDbSymbolTableRecord
100
AcDbLinetypeTableRecord
  2
HIDDEN
 70
     0
  3
Hidden __ __ __ __ __ __ __ __ __ __ __ __ __ __
 72
    65
 73
     2
 40
1.905
 49
1.27
 74
     0
 49
-0.635
 74
     0
  0
LTYPE
  5
6F
330
5
100
AcDbSymbolTableRecord
100
AcDbLinetypeTableRecord
  2
PHANTOM
 70
     0
  3
Phantom ______  __  __  ______  __  __  ______
 72
    65
 73
     6
 40
12.7
 49
6.35
 74
     0
 49
-1.27
 74
     0
 49
1.27
 74
     0
 49
-1.27
 74
     0
 49
1.27
 74
     0
 49
-1.27
 74
     0
  0
LTYPE
  5
70
330
5
100
AcDbSymbolTableRecord
100
AcDbLinetypeTableRecord
  2
CENTER
 70
     0
  3
Center ____ _ ____ _ ____ _ ____ _ ____ _ ____
 72
    65
 73
     4
 40
10.16
 49
6.35
 74
     0
 49
-1.27
 74
     0
 49
1.27
 74
     0
 49
-1.27
 74
     0
  0
LTYPE
  5
71
330
5
100
AcDbSymbolTableRecord
100
AcDbLinetypeTableRecord
  2
CENTERX2
 70
     0
  3
Center (2x) ________  __  ________  __  _____
 72
    65
 73
     4
 40
20.32
 49
12.7
 74
     0
 49
-2.54
 74
     0
 49
2.54
 74
     0
 49
-2.54
 74
     0
  0
LTYPE
  5
72
330
5
100
AcDbSymbolTableRecord
100
AcDbLinetypeTableRecord
  2
DOT2
 70
     0
  3
Dot (.5x) ........................................
 72
    65
 73
     2
 40
0.635
 49
0.0
 74
     0
 49
-0.635
 74
     0
  0
ENDTAB
  0
TABLE
  2
LAYER
  5
2
330
0
100
AcDbSymbolTable
 70
    17
  0
LAYER
  5
10
330
2
100
AcDbSymbolTableRecord
100
AcDbLayerTableRecord
  2
0
 70
     0
 62
     7
  6
Continuous
370
    -3
390
F
  0
LAYER
  5
73
330
2
100
AcDbSymbolTableRecord
100
AcDbLayerTableRecord
  2
FORMAT
 70
     0
 62
     7
  6
Continuous
370
    -3
390
F
  0
LAYER
  5
74
330
2
100
AcDbSymbolTableRecord
100
AcDbLayerTableRecord
  2
YARDIMCI_GEOMETRI
 70
     0
 62
    -6
  6
Continuous
290
     0
370
    -3
390
F
  0
LAYER
  5
75
330
2
100
AcDbSymbolTableRecord
100
AcDbLayerTableRecord
  2
SAYFA_CERCEVESI
 70
     0
 62
     7
  6
Continuous
370
    25
390
F
  0
LAYER
  5
76
330
2
100
AcDbSymbolTableRecord
100
AcDbLayerTableRecord
  2
ANTET
 70
     0
 62
     7
  6
Continuous
370
    -3
390
F
  0
LAYER
  5
77
330
2
100
AcDbSymbolTableRecord
100
AcDbLayerTableRecord
  2
OLCU
 70
     0
 62
   150
  6
Continuous
370
    -3
390
F
  0
LAYER
  5
78
330
2
100
AcDbSymbolTableRecord
100
AcDbLayerTableRecord
  2
METIN
 70
     0
 62
    96
  6
Continuous
370
    -3
390
F
  0
LAYER
  5
79
330
2
100
AcDbSymbolTableRecord
100
AcDbLayerTableRecord
  2
BALON
 70
     0
 62
     5
  6
Continuous
370
    -3
390
F
  0
LAYER
  5
7A
330
2
100
AcDbSymbolTableRecord
100
AcDbLayerTableRecord
  2
VURGU
 70
     0
 62
     7
  6
Continuous
370
    -3
390
F
  0
LAYER
  5
7B
330
2
100
AcDbSymbolTableRecord
100
AcDbLayerTableRecord
  2
SILIK
 70
     0
 62
     7
  6
Continuous
370
    -3
390
F
  0
LAYER
  5
7C
330
2
100
AcDbSymbolTableRecord
100
AcDbLayerTableRecord
  2
MODEL
 70
     0
 62
     7
  6
Continuous
370
    -3
390
F
  0
LAYER
  5
7D
330
2
100
AcDbSymbolTableRecord
100
AcDbLayerTableRecord
  2
DETAYLANDıRMA
 70
     0
 62
   190
  6
Continuous
370
    -3
390
F
  0
LAYER
  5
7E
330
2
100
AcDbSymbolTableRecord
100
AcDbLayerTableRecord
  2
TOLERANS
 70
     0
 62
   230
  6
Continuous
370
    -3
390
F
  0
LAYER
  5
7F
330
2
100
AcDbSymbolTableRecord
100
AcDbLayerTableRecord
  2
MERKEZ_CIZGILERI
 70
     0
 62
    30
  6
Continuous
370
    -3
390
F
  0
LAYER
  5
80
330
2
100
AcDbSymbolTableRecord
100
AcDbLayerTableRecord
  2
KESIT-DETAY_CIZGILERI
 70
     0
 62
     7
  6
Continuous
370
    -3
390
F
  0
LAYER
  5
81
330
2
100
AcDbSymbolTableRecord
100
AcDbLayerTableRecord
  2
\U+041E\U+0421\U+0415\U+0412\U+042B\U+0415
 70
     0
 62
     7
  6
Continuous
370
    -3
390
F
  0
LAYER
  5
82
330
2
100
AcDbSymbolTableRecord
100
AcDbLayerTableRecord
  2
\U+0412\U+041E\U+0414\U+042F\U+041D\U+042B\U+0415_\U+0417\U+041D\U+0410\U+041A\U+0418
 70
     0
 62
    11
  6
Continuous
370
    -3
390
F
  0
ENDTAB
  0
TABLE
  2
STYLE
  5
3
330
0
100
AcDbSymbolTable
 70
     1
  0
STYLE
  5
11
330
3
100
AcDbSymbolTableRecord
100
AcDbTextStyleTableRecord
  2
Standard
 70
     0
 40
0.0
 41
1.0
 50
0.0
 71
     0
 42
3.5
  3
txt
  4

  0
ENDTAB
  0
TABLE
  2
VIEW
  5
6
330
0
100
AcDbSymbolTable
 70
     0
  0
ENDTAB
  0
TABLE
  2
UCS
  5
7
330
0
100
AcDbSymbolTable
 70
     0
  0
ENDTAB
  0
TABLE
  2
APPID
  5
9
330
0
100
AcDbSymbolTable
 70
     1
  0
APPID
  5
12
330
9
100
AcDbSymbolTableRecord
100
AcDbRegAppTableRecord
  2
ACAD
 70
     0
  0
ENDTAB
  0
TABLE
  2
DIMSTYLE
  5
A
330
0
100
AcDbSymbolTable
 70
     1
100
AcDbDimStyleTable
  0
DIMSTYLE
105
27
330
A
100
AcDbSymbolTableRecord
100
AcDbDimStyleTableRecord
  2
ISO-25
 70
     0
 41
2.5
 42
0.625
 43
3.75
 44
1.25
 73
     0
 74
     0
 77
     1
 78
     8
140
2.5
141
2.5
143
0.0393700787
147
0.625
171
     3
172
     1
178
     0
271
     2
272
     2
274
     3
278
    44
283
     0
284
     8
340
11
  0
ENDTAB
  0
TABLE
  2
BLOCK_RECORD
  5
1
330
0
100
AcDbSymbolTable
 70
     3
  0
BLOCK_RECORD
  5
1F
330
1
100
AcDbSymbolTableRecord
100
AcDbBlockTableRecord
  2
*Model_Space
340
22
  0
BLOCK_RECORD
  5
1B
330
1
100
AcDbSymbolTableRecord
100
AcDbBlockTableRecord
  2
*Paper_Space
340
1E
  0
BLOCK_RECORD
  5
23
330
1
100
AcDbSymbolTableRecord
100
AcDbBlockTableRecord
  2
*Paper_Space0
340
26
  0
BLOCK_RECORD
  5
88
330
1
100
AcDbSymbolTableRecord
100
AcDbBlockTableRecord
  2
SW_CENTERMARKSYMBOL_0
340
0
102
{BLKREFS
331
93
102
}
  0
BLOCK_RECORD
  5
9E
330
1
100
AcDbSymbolTableRecord
100
AcDbBlockTableRecord
  2
SW_CENTERMARKSYMBOL_1
340
0
102
{BLKREFS
331
A9
102
}
  0
ENDTAB
  0
ENDSEC
  0
SECTION
  2
BLOCKS
  0
BLOCK
  5
20
330
1F
100
AcDbEntity
  8
0
100
AcDbBlockBegin
  2
*Model_Space
 70
     0
 10
0.0
 20
0.0
 30
0.0
  3
*Model_Space
  1

  0
ENDBLK
  5
21
330
1F
100
AcDbEntity
  8
0
100
AcDbBlockEnd
  0
BLOCK
  5
1C
330
1B
100
AcDbEntity
 67
     1
  8
0
100
AcDbBlockBegin
  2
*Paper_Space
 70
     0
 10
0.0
 20
0.0
 30
0.0
  3
*Paper_Space
  1

  0
ENDBLK
  5
1D
330
1B
100
AcDbEntity
 67
     1
  8
0
100
AcDbBlockEnd
  0
BLOCK
  5
24
330
23
100
AcDbEntity
  8
0
100
AcDbBlockBegin
  2
*Paper_Space0
 70
     0
 10
0.0
 20
0.0
 30
0.0
  3
*Paper_Space0
  1

  0
ENDBLK
  5
25
330
23
100
AcDbEntity
  8
0
100
AcDbBlockEnd
  0
BLOCK
  5
89
330
88
100
AcDbEntity
  8
0
100
AcDbBlockBegin
  2
SW_CENTERMARKSYMBOL_0
 70
     0
 10
0.0
 20
0.0
 30
0.0
  3
SW_CENTERMARKSYMBOL_0
  1

  0
LINE
  5
8B
330
88
100
AcDbEntity
  8
FORMAT
 62
     0
100
AcDbLine
 10
0.0
 20
0.0
 30
0.0
 11
0.0
 21
2.5
 31
0.0
  0
LINE
  5
8C
330
88
100
AcDbEntity
  8
FORMAT
 62
     0
100
AcDbLine
 10
0.0
 20
0.0
 30
0.0
 11
-2.5
 21
0.0
 31
0.0
  0
LINE
  5
8D
330
88
100
AcDbEntity
  8
FORMAT
 62
     0
100
AcDbLine
 10
0.0
 20
0.0
 30
0.0
 11
0.0
 21
-2.5
 31
0.0
  0
LINE
  5
8E
330
88
100
AcDbEntity
  8
FORMAT
 62
     0
100
AcDbLine
 10
0.0
 20
0.0
 30
0.0
 11
2.5
 21
0.0
 31
0.0
  0
LINE
  5
8F
330
88
100
AcDbEntity
  8
FORMAT
 62
     0
100
AcDbLine
 10
0.0
 20
5.0
 30
0.0
 11
0.0
 21
102.5
 31
0.0
  0
LINE
  5
90
330
88
100
AcDbEntity
  8
FORMAT
 62
     0
100
AcDbLine
 10
-5.0
 20
0.0
 30
0.0
 11
-102.5
 21
0.0
 31
0.0
  0
LINE
  5
91
330
88
100
AcDbEntity
  8
FORMAT
 62
     0
100
AcDbLine
 10
0.0
 20
-5.0
 30
0.0
 11
0.0
 21
-102.5
 31
0.0
  0
LINE
  5
92
330
88
100
AcDbEntity
  8
FORMAT
 62
     0
100
AcDbLine
 10
5.0
 20
0.0
 30
0.0
 11
102.5
 21
0.0
 31
0.0
  0
ENDBLK
  5
8A
330
88
100
AcDbEntity
  8
0
100
AcDbBlockEnd
  0
BLOCK
  5
9F
330
9E
100
AcDbEntity
  8
0
100
AcDbBlockBegin
  2
SW_CENTERMARKSYMBOL_1
 70
     0
 10
0.0
 20
0.0
 30
0.0
  3
SW_CENTERMARKSYMBOL_1
  1

  0
LINE
  5
A1
330
9E
100
AcDbEntity
  8
FORMAT
 62
     0
100
AcDbLine
 10
0.0
 20
0.0
 30
0.0
 11
0.0
 21
2.5
 31
0.0
  0
LINE
  5
A2
330
9E
100
AcDbEntity
  8
FORMAT
 62
     0
100
AcDbLine
 10
0.0
 20
0.0
 30
0.0
 11
-2.5
 21
0.0
 31
0.0
  0
LINE
  5
A3
330
9E
100
AcDbEntity
  8
FORMAT
 62
     0
100
AcDbLine
 10
0.0
 20
0.0
 30
0.0
 11
0.0
 21
-2.5
 31
0.0
  0
LINE
  5
A4
330
9E
100
AcDbEntity
  8
FORMAT
 62
     0
100
AcDbLine
 10
0.0
 20
0.0
 30
0.0
 11
2.5
 21
0.0
 31
0.0
  0
LINE
  5
A5
330
9E
100
AcDbEntity
  8
FORMAT
 62
     0
100
AcDbLine
 10
0.0
 20
5.0
 30
0.0
 11
0.0
 21
102.5
 31
0.0
  0
LINE
  5
A6
330
9E
100
AcDbEntity
  8
FORMAT
 62
     0
100
AcDbLine
 10
-5.0
 20
0.0
 30
0.0
 11
-102.5
 21
0.0
 31
0.0
  0
LINE
  5
A7
330
9E
100
AcDbEntity
  8
FORMAT
 62
     0
100
AcDbLine
 10
0.0
 20
-5.0
 30
0.0
 11
0.0
 21
-102.5
 31
0.0
  0
LINE
  5
A8
330
9E
100
AcDbEntity
  8
FORMAT
 62
     0
100
AcDbLine
 10
5.0
 20
0.0
 30
0.0
 11
102.5
 21
0.0
 31
0.0
  0
ENDBLK
  5
A0
330
9E
100
AcDbEntity
  8
0
100
AcDbBlockEnd
  0
ENDSEC
  0
SECTION
  2
ENTITIES
  0
LINE
  5
83
330
1F
100
AcDbEntity
  8
0
  6
Continuous
 62
     7
370
    25
100
AcDbLine
 10
61.0821640173
 20
7.5961621333
 30
0.0
 11
297.0821640173
 21
7.5961621333
 31
0.0
  0
LINE
  5
84
330
1F
100
AcDbEntity
  8
0
  6
Continuous
 62
     7
370
    25
100
AcDbLine
 10
297.0821640173
 20
207.5961621333
 30
0.0
 11
61.0821640173
 21
207.5961621333
 31
0.0
  0
CIRCLE
  5
85
330
1F
100
AcDbEntity
  8
0
  6
Continuous
 62
     7
370
    25
100
AcDbCircle
 10
61.0821640173
 20
107.5961621333
 30
0.0
 40
81.80000000000001
  0
CIRCLE
  5
86
330
1F
100
AcDbEntity
  8
0
  6
Continuous
 62
     7
370
    25
100
AcDbCircle
 10
61.0821640173
 20
107.5961621333
 30
0.0
 40
100.0
  0
LINE
  5
87
330
1F
100
AcDbEntity
  8
0
  6
Continuous
 62
     7
370
    25
100
AcDbLine
 10
297.0821640173
 20
207.5961621333
 30
0.0
 11
297.0821640173
 21
7.5961621333
 31
0.0
  0
INSERT
  5
93
330
1F
100
AcDbEntity
  8
FORMAT
 62
     7
100
AcDbBlockReference
  2
SW_CENTERMARKSYMBOL_0
 10
61.0821640173
 20
107.5961621333
 30
0.0
  0
LINE
  5
94
330
1F
100
AcDbEntity
  8
0
  6
Continuous
 62
     7
370
    25
100
AcDbLine
 10
-424.2777570951
 20
207.5961621333
 30
0.0
 11
-664.7777570951
 21
207.5961621333
 31
0.0
  0
LINE
  5
95
330
1F
100
AcDbEntity
  8
0
  6
Continuous
 62
     7
370
    25
100
AcDbLine
 10
-183.7777570951
 20
207.5961621333
 30
0.0
 11
-424.2777570951
 21
207.5961621333
 31
0.0
  0
LINE
  5
96
330
1F
100
AcDbEntity
  8
0
  6
Continuous
 62
     7
370
    25
100
AcDbLine
 10
-424.2777570951
 20
7.5961621333
 30
0.0
 11
-183.7777570951
 21
7.5961621333
 31
0.0
  0
LINE
  5
97
330
1F
100
AcDbEntity
  8
0
  6
Continuous
 62
     7
370
    25
100
AcDbLine
 10
-664.7777570951
 20
7.5961621333
 30
0.0
 11
-424.2777570951
 21
7.5961621333
 31
0.0
  0
CIRCLE
  5
98
330
1F
100
AcDbEntity
  8
0
  6
Continuous
 62
     7
370
    25
100
AcDbCircle
 10
-424.2777570951
 20
107.5961621333
 30
0.0
 40
81.79999999999995
  0
CIRCLE
  5
99
330
1F
100
AcDbEntity
  8
0
  6
Continuous
 62
     7
370
    25
100
AcDbCircle
 10
-424.2777570951
 20
107.5961621333
 30
0.0
 40
100.0
  0
LINE
  5
9A
330
1F
100
AcDbEntity
  8
0
  6
Continuous
 62
     7
370
    25
100
AcDbLine
 10
-664.7777570951
 20
107.5961621333
 30
0.0
 11
-664.7777570951
 21
207.5961621333
 31
0.0
  0
LINE
  5
9B
330
1F
100
AcDbEntity
  8
0
  6
Continuous
 62
     7
370
    25
100
AcDbLine
 10
-664.7777570951
 20
7.5961621333
 30
0.0
 11
-664.7777570951
 21
107.5961621333
 31
0.0
  0
LINE
  5
9C
330
1F
100
AcDbEntity
  8
0
  6
Continuous
 62
     7
370
    25
100
AcDbLine
 10
-183.7777570951
 20
107.5961621333
 30
0.0
 11
-183.7777570951
 21
207.5961621333
 31
0.0
  0
LINE
  5
9D
330
1F
100
AcDbEntity
  8
0
  6
Continuous
 62
     7
370
    25
100
AcDbLine
 10
-183.7777570951
 20
7.5961621333
 30
0.0
 11
-183.7777570951
 21
107.5961621333
 31
0.0
  0
INSERT
  5
A9
330
1F
100
AcDbEntity
  8
FORMAT
 62
     7
100
AcDbBlockReference
  2
SW_CENTERMARKSYMBOL_1
 10
-424.2777570951
 20
107.5961621333
 30
0.0
  0
LINE
  5
AA
330
1F
100
AcDbEntity
  8
0
  6
Continuous
 62
     7
370
    25
100
AcDbLine
 10
161.0821640173
 20
705.9502533649
 30
0.0
 11
161.0821640173
 21
846.4502533649
 31
0.0
  0
LINE
  5
AB
330
1F
100
AcDbEntity
  8
0
  6
Continuous
 62
     7
370
    25
100
AcDbLine
 10
161.0821640173
 20
365.4502533649
 30
0.0
 11
161.0821640173
 21
505.9502533649
 31
0.0
  0
LINE
  5
AC
330
1F
100
AcDbEntity
  8
0
  6
Continuous
 62
     7
370
    25
100
AcDbLine
 10
-38.9178359827
 20
846.4502533649
 30
0.0
 11
-38.9178359827
 21
365.4502533649
 31
0.0
  0
LINE
  5
AD
330
1F
100
AcDbEntity
  8
0
  6
Continuous
 62
     7
370
    25
100
AcDbLine
 10
161.0821640173
 20
505.9502533649
 30
0.0
 11
297.0821640173
 21
505.9502533649
 31
0.0
  0
LINE
  5
AE
330
1F
100
AcDbEntity
  8
0
  6
Continuous
 62
     7
370
    25
100
AcDbLine
 10
297.0821640173
 20
705.9502533649
 30
0.0
 11
161.0821640173
 21
705.9502533649
 31
0.0
  0
LINE
  5
AF
330
1F
100
AcDbEntity
  8
0
  6
Continuous
 62
     7
370
    25
100
AcDbLine
 10
161.0821640173
 20
705.9502533649
 30
0.0
 11
61.0821640173
 21
605.9502533649
 31
0.0
  0
LINE
  5
B0
330
1F
100
AcDbEntity
  8
0
  6
Continuous
 62
     7
370
    25
100
AcDbLine
 10
61.0821640173
 20
605.9502533649
 30
0.0
 11
161.0821640173
 21
505.9502533649
 31
0.0
  0
LINE
  5
B1
330
1F
100
AcDbEntity
  8
0
  6
Continuous
 62
     7
370
    25
100
AcDbLine
 10
-38.9178359827
 20
846.4502533649
 30
0.0
 11
161.0821640173
 21
846.4502533649
 31
0.0
  0
LINE
  5
B2
330
1F
100
AcDbEntity
  8
0
  6
Continuous
 62
     7
370
    25
100
AcDbLine
 10
-38.9178359827
 20
365.4502533649
 30
0.0
 11
161.0821640173
 21
365.4502533649
 31
0.0
  0
LINE
  5
B3
330
1F
100
AcDbEntity
  8
0
  6
Continuous
 62
     7
370
    25
100
AcDbLine
 10
297.0821640173
 20
705.9502533649
 30
0.0
 11
297.0821640173
 21
505.9502533649
 31
0.0
  0
LINE
  5
B4
330
1F
100
AcDbEntity
  8
0
  6
Continuous
 62
     7
370
    25
100
AcDbLine
 10
680.5564218574
 20
7.5961621333
 30
0.0
 11
921.0564218574
 21
7.5961621333
 31
0.0
  0
LINE
  5
B5
330
1F
100
AcDbEntity
  8
0
  6
Continuous
 62
     7
370
    25
100
AcDbLine
 10
440.0564218574
 20
7.5961621333
 30
0.0
 11
680.5564218574
 21
7.5961621333
 31
0.0
  0
LINE
  5
B6
330
1F
100
AcDbEntity
  8
0
  6
Continuous
 62
     7
370
    25
100
AcDbLine
 10
680.5564218574
 20
207.5961621333
 30
0.0
 11
440.0564218574
 21
207.5961621333
 31
0.0
  0
LINE
  5
B7
330
1F
100
AcDbEntity
  8
0
  6
Continuous
 62
     7
370
    25
100
AcDbLine
 10
921.0564218574
 20
207.5961621333
 30
0.0
 11
680.5564218574
 21
207.5961621333
 31
0.0
  0
LINE
  5
B8
330
1F
100
AcDbEntity
  8
0
  6
Continuous
 62
     7
370
    25
100
AcDbLine
 10
921.0564218574
 20
207.5961621333
 30
0.0
 11
921.0564218574
 21
7.5961621333
 31
0.0
  0
LINE
  5
B9
330
1F
100
AcDbEntity
  8
0
  6
Continuous
 62
     7
370
    25
100
AcDbLine
 10
440.0564218574
 20
207.5961621333
 30
0.0
 11
440.0564218574
 21
7.5961621333
 31
0.0
  0
LINE
  5
BA
330
1F
100
AcDbEntity
  8
0
  6
Continuous
 62
     7
370
    25
100
AcDbLine
 10
-38.9178359827
 20
-136.774420863
 30
0.0
 11
-38.9178359827
 21
-617.774420863
 31
0.0
  0
LINE
  5
BB
330
1F
100
AcDbEntity
  8
0
  6
Continuous
 62
     7
370
    25
100
AcDbLine
 10
161.0821640173
 20
-277.274420863
 30
0.0
 11
161.0821640173
 21
-136.774420863
 31
0.0
  0
LINE
  5
BC
330
1F
100
AcDbEntity
  8
0
  6
Continuous
 62
     7
370
    25
100
AcDbLine
 10
161.0821640173
 20
-617.774420863
 30
0.0
 11
161.0821640173
 21
-477.274420863
 31
0.0
  0
LINE
  5
BD
330
1F
100
AcDbEntity
  8
0
  6
Continuous
 62
     7
370
    25
100
AcDbLine
 10
161.0821640173
 20
-477.274420863
 30
0.0
 11
297.0821640173
 21
-477.274420863
 31
0.0
  0
LINE
  5
BE
330
1F
100
AcDbEntity
  8
0
  6
Continuous
 62
     7
370
    25
100
AcDbLine
 10
297.0821640173
 20
-277.274420863
 30
0.0
 11
161.0821640173
 21
-277.274420863
 31
0.0
  0
LINE
  5
BF
330
1F
100
AcDbEntity
  8
0
  6
Continuous
 62
     7
370
    25
100
AcDbLine
 10
61.0821640173
 20
-377.274420863
 30
0.0
 11
161.0821640173
 21
-477.274420863
 31
0.0
  0
LINE
  5
C0
330
1F
100
AcDbEntity
  8
0
  6
Continuous
 62
     7
370
    25
100
AcDbLine
 10
161.0821640173
 20
-277.274420863
 30
0.0
 11
61.0821640173
 21
-377.274420863
 31
0.0
  0
LINE
  5
C1
330
1F
100
AcDbEntity
  8
0
  6
Continuous
 62
     7
370
    25
100
AcDbLine
 10
161.0821640173
 20
-617.774420863
 30
0.0
 11
-38.9178359827
 21
-617.774420863
 31
0.0
  0
LINE
  5
C2
330
1F
100
AcDbEntity
  8
0
  6
Continuous
 62
     7
370
    25
100
AcDbLine
 10
161.0821640173
 20
-136.774420863
 30
0.0
 11
-38.9178359827
 21
-136.774420863
 31
0.0
  0
LINE
  5
C3
330
1F
100
AcDbEntity
  8
0
  6
Continuous
 62
     7
370
    25
100
AcDbLine
 10
297.0821640173
 20
-277.274420863
 30
0.0
 11
297.0821640173
 21
-477.274420863
 31
0.0
  0
LINE
  5
C4
330
1F
100
AcDbEntity
  8
0
  6
Continuous
 62
     7
370
    25
100
AcDbLine
 10
673.5413148739
 20
-252.4941076067
 30
0.0
 11
553.4780706303
 21
-183.1830720317
 31
0.0
  0
LINE
  5
C5
330
1F
100
AcDbEntity
  8
0
  6
Continuous
 62
     7
370
    25
100
AcDbLine
 10
893.596432381
 20
-379.5292229251
 30
0.0
 11
873.5575696676
 21
-367.9610337165
 31
0.0
  0
LINE
  5
C6
330
1F
100
AcDbEntity
  8
0
  6
Continuous
 62
     7
370
    25
100
AcDbLine
 10
453.4861973667
 20
-356.3928445079
 30
0.0
 11
793.6045591174
 21
-552.7389954012
 31
0.0
  0
LINE
  5
C7
330
1F
100
AcDbEntity
  8
0
  6
Continuous
 62
     7
370
    25
100
AcDbLine
 10
773.5331881375
 20
-425.7038800828
 30
0.0
 11
890.4144518657
 21
-358.2297627595
 31
0.0
  0
LINE
  5
C8
330
1F
100
AcDbEntity
  8
0
  6
Continuous
 62
     7
370
    25
100
AcDbLine
 10
790.4225786021
 20
-185.0199902833
 30
0.0
 11
673.5413148739
 21
-252.4941076067
 31
0.0
  0
LINE
  5
C9
330
1F
100
AcDbEntity
  8
0
  6
Continuous
 62
     7
370
    25
100
AcDbLine
 10
673.5413148739
 20
-252.4941076067
 30
0.0
 11
673.5413148739
 21
-449.6151149051
 31
0.0
  0
ELLIPSE
  5
CA
330
1F
100
AcDbEntity
  8
0
  6
Continuous
 62
     7
370
    25
100
AcDbEllipse
 10
673.5413148739
 20
-367.9610337165
 30
0.0
 11
141.4213562373094
 21
2.273736754432321E-13
 31
0.0
210
0.0
220
0.0
230
1.0
 40
0.5773815452
 41
4.712388980384697
 42
5.497705879720051
  0
LWPOLYLINE
  5
CB
330
1F
100
AcDbEntity
  8
0
  6
Continuous
 62
     7
370
    25
100
AcDbPolyline
 90
      107
 70
   128
 43
0.0
 10
574.1928121172
 20
-228.9675526787
 10
574.0686251993
 20
-224.2020052207
 10
573.6965006566
 20
-219.5965800854
 10
573.0777455903
 20
-215.1674539965
 10
572.2145334
 20
-210.9301844209
 10
571.10989615
 20
-206.8996549226
 10
569.7677139191
 20
-203.0900228835
 10
568.1927011711
 20
-199.5146697749
 10
566.3903901958
 20
-196.1861541552
 10
564.3671116763
 20
-193.1161675567
 10
562.1299724522
 20
-190.3154934195
 10
559.6868305565
 20
-187.7939692135
 10
557.0462676143
 20
-185.5604518845
 10
554.2175586992
 20
-183.6227867436
 10
551.2106397544
 20
-181.9877799102
 10
548.0360726925
 20
-180.6611744055
 10
544.7050082959
 20
-179.6476299797
 10
541.22914705
 20
-178.9507067446
 10
537.620698044
 20
-178.5728526684
 10
533.8923360867
 20
-178.5153949774
 10
530.0571571855
 20
-178.7785354937
 10
526.1286325461
 20
-179.3613499268
 10
522.1205612546
 20
-180.2617911197
 10
518.0470218076
 20
-181.4766962399
 10
513.922322661
 20
-183.0017978887
 10
509.7609519709
 20
-184.8317390911
 10
505.5775267037
 20
-186.9600921119
 10
501.3867412933
 20
-189.3793810333
 10
497.2033160261
 20
-192.081108015
 10
493.041945336
 20
-195.0557831422
 10
488.9172461894
 20
-198.2929577601
 10
484.8437067424
 20
-201.7812611748
 10
480.8356354509
 20
-205.5084405934
 10
476.9071108115
 20
-209.4614041622
 10
473.0719319103
 20
-213.6262669525
 10
469.343569953
 20
-217.9883997318
 10
465.735120947
 20
-222.5324803497
 10
462.2592597011
 20
-227.2425475572
 10
458.9281953045
 20
-232.1020570716
 10
455.7536282426
 20
-237.0939396884
 10
452.7467092978
 20
-242.2006612378
 10
449.9180003827
 20
-247.4042841743
 10
447.2774374405
 20
-252.6865305823
 10
444.8342955448
 20
-258.0288463788
 10
442.5971563207
 20
-263.4124664847
 10
440.5738778012
 20
-268.818480738
 10
438.7715668259
 20
-274.2279003165
 10
437.1965540779
 20
-279.6217244367
 10
435.854371847
 20
-284.9810070945
 10
434.749734597
 20
-290.2869236142
 10
433.8865224067
 20
-295.5208367705
 10
433.2677673404
 20
-300.6643622526
 10
432.8956427977
 20
-305.6994332395
 10
432.7714558798
 20
-310.6083638609
 10
432.8956427977
 20
-315.3739113189
 10
433.2677673404
 20
-319.9793364543
 10
433.8865224067
 20
-324.4084625432
 10
434.749734597
 20
-328.6457321187
 10
435.854371847
 20
-332.676261617
 10
437.1965540779
 20
-336.4858936562
 10
438.7715668259
 20
-340.0612467647
 10
440.5738778012
 20
-343.3897623845
 10
442.5971563207
 20
-346.4597489829
 10
444.8342955448
 20
-349.2604231201
 10
447.2774374405
 20
-351.7819473261
 10
449.9180003827
 20
-354.0154646551
 10
452.7467092978
 20
-355.953129796
 10
455.7536282426
 20
-357.5881366294
 10
458.9281953045
 20
-358.9147421341
 10
462.2592597011
 20
-359.9282865599
 10
465.735120947
 20
-360.625209795
 10
469.343569953
 20
-361.0030638712
 10
473.0719319103
 20
-361.0605215623
 10
476.9071108115
 20
-360.7973810459
 10
480.8356354509
 20
-360.2145666128
 10
484.8437067424
 20
-359.3141254199
 10
488.9172461894
 20
-358.0992202998
 10
493.041945336
 20
-356.5741186509
 10
497.2033160261
 20
-354.7441774485
 10
501.3867412933
 20
-352.6158244278
 10
505.5775267037
 20
-350.1965355063
 10
509.7609519709
 20
-347.4948085247
 10
513.922322661
 20
-344.5201333975
 10
518.0470218076
 20
-341.2829587795
 10
522.1205612546
 20
-337.7946553648
 10
526.1286325461
 20
-334.0674759462
 10
530.0571571855
 20
-330.1145123774
 10
533.8923360867
 20
-325.9496495871
 10
537.620698044
 20
-321.5875168078
 10
541.22914705
 20
-317.0434361899
 10
544.7050082959
 20
-312.3333689824
 10
548.0360726925
 20
-307.473859468
 10
551.2106397544
 20
-302.4819768512
 10
554.2175586992
 20
-297.3752553018
 10
557.0462676143
 20
-292.1716323654
 10
559.6868305565
 20
-286.8893859573
 10
562.1299724522
 20
-281.5470701608
 10
564.3671116763
 20
-276.1634500549
 10
566.3903901958
 20
-270.7574358016
 10
568.1927011711
 20
-265.3480162231
 10
569.7677139191
 20
-259.954192103
 10
571.10989615
 20
-254.5949094451
 10
572.2145334
 20
-249.2889929254
 10
573.0777455903
 20
-244.0550797691
 10
573.6965006566
 20
-238.9115542871
 10
574.0686251993
 20
-233.8764833001
 10
574.1928121172
 20
-228.9675526787
  0
LWPOLYLINE
  5
CC
330
1F
100
AcDbEntity
  8
0
  6
Continuous
 62
     7
370
    25
100
AcDbPolyline
 90
       15
 70
   128
 43
0.0
 10
914.3111738679
 20
-425.313703572
 10
914.18698695
 20
-420.548156114
 10
913.8148624073
 20
-415.9427309787
 10
913.196107341
 20
-411.5136048898
 10
912.3328951507
 20
-407.2763353143
 10
911.2282579008
 20
-403.245805816
 10
909.8860756698
 20
-399.4361737768
 10
908.3110629218
 20
-395.8608206683
 10
906.5087519465
 20
-392.5323050485
 10
904.485473427
 20
-389.4623184501
 10
902.2483342029
 20
-386.6616443128
 10
899.8051923072
 20
-384.1401201069
 10
897.164629365
 20
-381.9066027779
 10
894.3359204499
 20
-379.9689376369
 10
893.596432381
 20
-379.5292229251
  0
LWPOLYLINE
  5
CD
330
1F
100
AcDbEntity
  8
0
  6
Continuous
 62
     7
370
    25
100
AcDbPolyline
 90
       41
 70
   128
 43
0.0
 10
793.6045591174
 20
-552.7389954012
 10
795.8719899933
 20
-553.9342875228
 10
799.0465570552
 20
-555.2608930275
 10
802.3776214518
 20
-556.2744374533
 10
805.8534826977
 20
-556.9713606884
 10
809.4619317037
 20
-557.3492147646
 10
813.190293661
 20
-557.4066724556
 10
817.0254725622
 20
-557.1435319393
 10
820.9539972016
 20
-556.5607175062
 10
824.9620684931
 20
-555.6602763133
 10
829.0356079401
 20
-554.4453711931
 10
833.1603070867
 20
-552.9202695443
 10
837.3216777768
 20
-551.0903283419
 10
841.505103044
 20
-548.9619753211
 10
845.6958884545
 20
-546.5426863996
 10
849.8793137217
 20
-543.840959418
 10
854.0406844117
 20
-540.8662842908
 10
858.1653835584
 20
-537.6291096729
 10
862.2389230053
 20
-534.1408062581
 10
866.2469942968
 20
-530.4136268396
 10
870.1755189362
 20
-526.4606632708
 10
874.0106978374
 20
-522.2958004805
 10
877.7390597947
 20
-517.9336677012
 10
881.3475088007
 20
-513.3895870833
 10
884.8233700467
 20
-508.6795198757
 10
888.1544344432
 20
-503.8200103614
 10
891.3290015051
 20
-498.8281277446
 10
894.3359204499
 20
-493.7214061951
 10
897.164629365
 20
-488.5177832587
 10
899.8051923072
 20
-483.2355368507
 10
902.2483342029
 20
-477.8932210542
 10
904.485473427
 20
-472.5096009483
 10
906.5087519465
 20
-467.103586695
 10
908.3110629218
 20
-461.6941671165
 10
909.8860756698
 20
-456.3003429963
 10
911.2282579008
 20
-450.9410603385
 10
912.3328951507
 20
-445.6351438188
 10
913.196107341
 20
-440.4012306625
 10
913.8148624073
 20
-435.2577051804
 10
914.18698695
 20
-430.2226341934
 10
914.3111738679
 20
-425.313703572
  0
LWPOLYLINE
  5
CE
330
1F
100
AcDbEntity
  8
0
  6
Continuous
 62
     7
370
    25
100
AcDbPolyline
 90
       97
 70
   128
 43
0.0
 10
561.3234686996
 20
-236.3968664963
 10
561.199625962
 20
-232.0998856639
 10
560.8286280629
 20
-227.9642909445
 10
560.2120636722
 20
-224.0077915894
 10
559.3525730133
 20
-220.2473299364
 10
558.2538365571
 20
-216.6990088595
 10
556.9205592619
 20
-213.3780228143
 10
555.3584504257
 20
-210.298592773
 10
553.5741992384
 20
-207.4739053277
 10
551.5754461375
 20
-204.9160562237
 10
549.3707500905
 20
-202.6359985636
 10
546.9695519445
 20
-200.6434959043
 10
544.3821339985
 20
-198.9470804482
 10
541.6195759734
 20
-197.5540165065
 10
538.6937075669
 20
-196.470269393
 10
535.6170577965
 20
-195.7004798793
 10
532.402801349
 20
-195.2479443221
 10
529.0647021639
 20
-195.1146005482
 10
525.6170544945
 20
-195.3010195562
 10
522.0746216972
 20
-195.8064030711
 10
518.4525730133
 20
-196.6285869633
 10
514.7664186112
 20
-197.7640505151
 10
511.03194317
 20
-199.2079314972
 10
507.2651382868
 20
-200.9540469895
 10
503.4821339985
 20
-202.9949198576
 10
499.6991297102
 20
-205.3218107703
 10
495.932324827
 20
-207.9247556237
 10
492.1978493858
 20
-210.7926082082
 10
488.5116949837
 20
-213.9130879389
 10
484.8896462998
 20
-217.2728324423
 10
481.3472135025
 20
-220.8574547768
 10
477.899565833
 20
-224.6516050392
 10
474.561466648
 20
-228.6390360956
 10
471.3472102005
 20
-232.8026731541
 10
468.2705604301
 20
-237.1246868815
 10
465.3446920236
 20
-241.5865697515
 10
462.5821339985
 20
-246.1692152968
 10
459.9947160525
 20
-250.8529999254
 10
457.5935179065
 20
-255.6178669526
 10
455.3888218595
 20
-260.4434124863
 10
453.3900687586
 20
-265.3089727997
 10
451.6058175712
 20
-270.1937128164
 10
450.0437087351
 20
-275.0767153299
 10
448.7104314399
 20
-279.9370705737
 10
447.6116949837
 20
-284.7539657605
 10
446.7522043248
 20
-289.5067742056
 10
446.1356399341
 20
-294.1751436536
 10
445.764642035
 20
-298.7390834298
 10
445.6407992974
 20
-303.1790500434
 10
445.764642035
 20
-307.4760308757
 10
446.1356399341
 20
-311.6116255951
 10
446.7522043248
 20
-315.5681249502
 10
447.6116949837
 20
-319.3285866032
 10
448.7104314399
 20
-322.8769076801
 10
450.0437087351
 20
-326.1978937253
 10
451.6058175713
 20
-329.2773237666
 10
453.3900687586
 20
-332.1020112119
 10
455.3888218595
 20
-334.6598603159
 10
457.5935179065
 20
-336.939917976
 10
459.9947160525
 20
-338.9324206353
 10
462.5821339985
 20
-340.6288360915
 10
465.3446920236
 20
-342.0219000331
 10
468.2705604301
 20
-343.1056471466
 10
471.3472102005
 20
-343.8754366604
 10
474.561466648
 20
-344.3279722175
 10
477.899565833
 20
-344.4613159914
 10
481.3472135025
 20
-344.2748969835
 10
484.8896462998
 20
-343.7695134685
 10
488.5116949837
 20
-342.9473295763
 10
492.1978493858
 20
-341.8118660245
 10
495.932324827
 20
-340.3679850425
 10
499.6991297102
 20
-338.6218695501
 10
503.4821339985
 20
-336.5809966821
 10
507.2651382868
 20
-334.2541057693
 10
511.03194317
 20
-331.6511609159
 10
514.7664186112
 20
-328.7833083314
 10
518.4525730133
 20
-325.6628286008
 10
522.0746216972
 20
-322.3030840973
 10
525.6170544945
 20
-318.7184617628
 10
529.064702164
 20
-314.9243115004
 10
532.402801349
 20
-310.936880444
 10
535.6170577965
 20
-306.7732433855
 10
538.6937075669
 20
-302.4512296581
 10
541.6195759734
 20
-297.9893467881
 10
544.3821339985
 20
-293.4067012429
 10
546.9695519445
 20
-288.7229166142
 10
549.3707500905
 20
-283.958049587
 10
551.5754461375
 20
-279.1325040533
 10
553.5741992384
 20
-274.2669437399
 10
555.3584504257
 20
-269.3822037232
 10
556.9205592619
 20
-264.4992012097
 10
558.2538365571
 20
-259.6388459659
 10
559.3525730133
 20
-254.8219507791
 10
560.2120636722
 20
-250.069142334
 10
560.8286280629
 20
-245.400772886
 10
561.199625962
 20
-240.8368331098
 10
561.3234686996
 20
-236.3968664963
  0
LWPOLYLINE
  5
CF
330
1F
100
AcDbEntity
  8
0
  6
Continuous
 62
     7
370
    25
100
AcDbPolyline
 90
      107
 70
   128
 43
0.0
 10
911.1291933525
 20
-312.4452821125
 10
911.0050064346
 20
-307.5363514911
 10
910.632881892
 20
-302.5012805042
 10
910.0141268257
 20
-297.3577550221
 10
909.1509146354
 20
-292.1238418658
 10
908.0462773854
 20
-286.8179253461
 10
906.7040951544
 20
-281.4586426883
 10
905.1290824065
 20
-276.0648185681
 10
903.3267714312
 20
-270.6553989896
 10
901.3034929117
 20
-265.2493847363
 10
899.0663536875
 20
-259.8657646304
 10
896.6232117919
 20
-254.5234488339
 10
893.9826488496
 20
-249.2412024259
 10
891.1539399345
 20
-244.0375794894
 10
888.1470209898
 20
-238.93085794
 10
884.9724539279
 20
-233.9389753232
 10
881.6413895313
 20
-229.0794658088
 10
878.1655282854
 20
-224.3693986013
 10
874.5570792794
 20
-219.8253179834
 10
870.8287173221
 20
-215.4631852041
 10
866.9935384209
 20
-211.2983224138
 10
863.0650137815
 20
-207.345358845
 10
859.05694249
 20
-203.6181794264
 10
854.983403043
 20
-200.1298760117
 10
850.8587038964
 20
-196.8927013938
 10
846.6973332063
 20
-193.9180262666
 10
842.5139079391
 20
-191.2162992849
 10
838.3231225286
 20
-188.7970103635
 10
834.1396972615
 20
-186.6686573427
 10
829.9783265714
 20
-184.8387161403
 10
825.8536274248
 20
-183.3136144915
 10
821.7800879778
 20
-182.0987093713
 10
817.7720166863
 20
-181.1982681784
 10
813.8434920469
 20
-180.6154537453
 10
810.0083131457
 20
-180.352313229
 10
806.2799511884
 20
-180.40977092
 10
802.6715021824
 20
-180.7876249962
 10
799.1956409364
 20
-181.4845482313
 10
795.8645765399
 20
-182.4980926571
 10
792.690009478
 20
-183.8246981618
 10
789.6830905332
 20
-185.4597049952
 10
786.8543816181
 20
-187.3973701361
 10
784.2138186759
 20
-189.6308874651
 10
781.7706767802
 20
-192.1524116711
 10
779.5335375561
 20
-194.9530858083
 10
777.5102590366
 20
-198.0230724068
 10
775.7079480613
 20
-201.3515880265
 10
774.1329353133
 20
-204.9269411351
 10
772.7907530823
 20
-208.7365731742
 10
771.6861158324
 20
-212.7671026725
 10
770.8229036421
 20
-217.0043722481
 10
770.2041485758
 20
-221.433498337
 10
769.8320240331
 20
-226.0389234723
 10
769.7078371152
 20
-230.8044709303
 10
769.8320240331
 20
-235.7134015517
 10
770.2041485758
 20
-240.7484725387
 10
770.8229036421
 20
-245.8919980207
 10
771.6861158324
 20
-251.125911177
 10
772.7907530823
 20
-256.4318276967
 10
774.1329353133
 20
-261.7911103546
 10
775.7079480613
 20
-267.1849344747
 10
777.5102590366
 20
-272.5943540532
 10
779.5335375561
 20
-278.0003683065
 10
781.7706767802
 20
-283.3839884124
 10
784.2138186759
 20
-288.7263042089
 10
786.8543816181
 20
-294.008550617
 10
789.6830905332
 20
-299.2121735534
 10
792.690009478
 20
-304.3188951028
 10
795.8645765399
 20
-309.3107777196
 10
799.1956409364
 20
-314.170287234
 10
802.6715021824
 20
-318.8803544415
 10
806.2799511884
 20
-323.4244350594
 10
810.0083131457
 20
-327.7865678387
 10
813.8434920469
 20
-331.951430629
 10
817.7720166863
 20
-335.9043941978
 10
821.7800879778
 20
-339.6315736164
 10
825.8536274248
 20
-343.1198770311
 10
829.9783265714
 20
-346.3570516491
 10
834.1396972615
 20
-349.3317267763
 10
838.3231225286
 20
-352.0334537579
 10
842.5139079391
 20
-354.4527426794
 10
846.6973332063
 20
-356.5810957001
 10
850.8587038964
 20
-358.4110369025
 10
854.983403043
 20
-359.9361385514
 10
859.05694249
 20
-361.1510436715
 10
863.0650137815
 20
-362.0514848644
 10
866.9935384209
 20
-362.6342992975
 10
870.8287173221
 20
-362.8974398139
 10
874.5570792794
 20
-362.8399821228
 10
878.1655282854
 20
-362.4621280466
 10
881.6413895313
 20
-361.7652048115
 10
884.9724539279
 20
-360.7516603857
 10
888.1470209898
 20
-359.425054881
 10
891.1539399345
 20
-357.7900480476
 10
893.9826488496
 20
-355.8523829067
 10
896.6232117919
 20
-353.6188655777
 10
899.0663536875
 20
-351.0973413717
 10
901.3034929117
 20
-348.2966672345
 10
903.3267714312
 20
-345.2266806361
 10
905.1290824065
 20
-341.8981650163
 10
906.7040951544
 20
-338.3228119078
 10
908.0462773854
 20
-334.5131798686
 10
909.1509146354
 20
-330.4826503703
 10
910.0141268257
 20
-326.2453807948
 10
910.632881892
 20
-321.8162547059
 10
911.0050064346
 20
-317.2108295705
 10
911.1291933525
 20
-312.4452821125
  0
LWPOLYLINE
  5
D0
330
1F
100
AcDbEntity
  8
0
  6
Continuous
 62
     7
370
    25
100
AcDbPolyline
 90
       97
 70
   128
 43
0.0
 10
898.2598499349
 20
-305.015968295
 10
898.1360071974
 20
-300.5760016814
 10
897.7650092983
 20
-296.0120619052
 10
897.1484449076
 20
-291.3436924572
 10
896.2889542487
 20
-286.5908840121
 10
895.1902177925
 20
-281.7739888253
 10
893.8569404973
 20
-276.9136335815
 10
892.2948316611
 20
-272.030631068
 10
890.5105804738
 20
-267.1458910513
 10
888.5118273728
 20
-262.2803307379
 10
886.3071313259
 20
-257.4547852042
 10
883.9059331799
 20
-252.689918177
 10
881.3185152339
 20
-248.0061335484
 10
878.5559572088
 20
-243.4234880031
 10
875.6300888023
 20
-238.9616051331
 10
872.5534390319
 20
-234.6395914057
 10
869.3391825844
 20
-230.4759543472
 10
866.0010833993
 20
-226.4885232908
 10
862.5534357299
 20
-222.6943730284
 10
859.0110029326
 20
-219.1097506939
 10
855.3889542487
 20
-215.7500061905
 10
851.7027998466
 20
-212.6295264598
 10
847.9683244053
 20
-209.7616738753
 10
844.2015195222
 20
-207.1587290219
 10
840.4185152339
 20
-204.8318381092
 10
836.6355109456
 20
-202.7909652411
 10
832.8687060624
 20
-201.0448497488
 10
829.1342306212
 20
-199.6009687667
 10
825.4480762191
 20
-198.4655052149
 10
821.8260275352
 20
-197.6433213227
 10
818.2835947379
 20
-197.1379378078
 10
814.8359470684
 20
-196.9515187998
 10
811.4978478834
 20
-197.0848625737
 10
808.2835914359
 20
-197.5373981309
 10
805.2069416655
 20
-198.3071876446
 10
802.2810732589
 20
-199.3909347581
 10
799.5185152339
 20
-200.7839986998
 10
796.9310972879
 20
-202.4804141559
 10
794.5298991419
 20
-204.4729168152
 10
792.3252030949
 20
-206.7529744753
 10
790.326449994
 20
-209.3108235793
 10
788.5421988066
 20
-212.1355110246
 10
786.9800899704
 20
-215.2149410659
 10
785.6468126752
 20
-218.5359271111
 10
784.5480762191
 20
-222.084248188
 10
783.6885855602
 20
-225.844709841
 10
783.0720211695
 20
-229.8012091961
 10
782.7010232704
 20
-233.9368039155
 10
782.5771805328
 20
-238.2337847479
 10
782.7010232704
 20
-242.6737513614
 10
783.0720211695
 20
-247.2376911376
 10
783.6885855602
 20
-251.9060605856
 10
784.5480762191
 20
-256.6588690307
 10
785.6468126752
 20
-261.4757642175
 10
786.9800899704
 20
-266.3361194613
 10
788.5421988066
 20
-271.2191219748
 10
790.326449994
 20
-276.1038619915
 10
792.3252030949
 20
-280.9694223049
 10
794.5298991419
 20
-285.7949678386
 10
796.9310972879
 20
-290.5598348658
 10
799.5185152339
 20
-295.2436194945
 10
802.2810732589
 20
-299.8262650397
 10
805.2069416655
 20
-304.2881479097
 10
808.2835914359
 20
-308.6101616371
 10
811.4978478834
 20
-312.7737986956
 10
814.8359470684
 20
-316.761229752
 10
818.2835947379
 20
-320.5553800144
 10
821.8260275352
 20
-324.1400023489
 10
825.4480762191
 20
-327.4997468524
 10
829.1342306212
 20
-330.620226583
 10
832.8687060624
 20
-333.4880791675
 10
836.6355109456
 20
-336.0910240209
 10
840.4185152339
 20
-338.4179149337
 10
844.2015195222
 20
-340.4587878017
 10
847.9683244053
 20
-342.2049032941
 10
851.7027998466
 20
-343.6487842761
 10
855.3889542487
 20
-344.7842478279
 10
859.0110029326
 20
-345.6064317201
 10
862.5534357299
 20
-346.1118152351
 10
866.0010833993
 20
-346.298234243
 10
869.3391825844
 20
-346.1648904691
 10
872.5534390319
 20
-345.712354912
 10
875.6300888023
 20
-344.9425653982
 10
878.5559572088
 20
-343.8588182847
 10
881.3185152339
 20
-342.4657543431
 10
883.9059331799
 20
-340.7693388869
 10
886.3071313259
 20
-338.7768362276
 10
888.5118273728
 20
-336.4967785675
 10
890.5105804738
 20
-333.9389294635
 10
892.2948316611
 20
-331.1142420182
 10
893.8569404973
 20
-328.0348119769
 10
895.1902177925
 20
-324.7138259317
 10
896.2889542487
 20
-321.1655048548
 10
897.1484449076
 20
-317.4050432018
 10
897.7650092983
 20
-313.4485438467
 10
898.1360071974
 20
-309.3129491273
 10
898.2598499349
 20
-305.015968295
  0
ENDSEC
  0
SECTION
  2
OBJECTS
  0
DICTIONARY
  5
C
330
0
100
AcDbDictionary
281
     1
  3
ACAD_GROUP
350
D
  3
ACAD_LAYOUT
350
1A
  3
ACAD_MLINESTYLE
350
17
  3
ACAD_PLOTSETTINGS
350
19
  3
ACAD_PLOTSTYLENAME
350
E
  3
ACAD_SCALELIST
350
47
  3
DWGPROPS
350
D1
  0
DICTIONARY
  5
D
102
{ACAD_REACTORS
330
C
102
}
330
C
100
AcDbDictionary
281
     1
  0
DICTIONARY
  5
1A
102
{ACAD_REACTORS
330
C
102
}
330
C
100
AcDbDictionary
281
     1
  3
Layout1
350
1E
  3
Layout2
350
26
  3
Model
350
22
  0
DICTIONARY
  5
17
102
{ACAD_REACTORS
330
C
102
}
330
C
100
AcDbDictionary
281
     1
  3
Standard
350
18
  0
DICTIONARY
  5
19
102
{ACAD_REACTORS
330
C
102
}
330
C
100
AcDbDictionary
281
     1
  0
ACDBDICTIONARYWDFLT
  5
E
102
{ACAD_REACTORS
330
C
102
}
330
C
100
AcDbDictionary
281
     1
  3
Normal
350
F
100
AcDbDictionaryWithDefault
340
F
  0
DICTIONARY
  5
47
102
{ACAD_REACTORS
330
C
102
}
330
C
100
AcDbDictionary
281
     1
  3
A0
350
48
  3
A1
350
49
  3
A2
350
4A
  3
A3
350
4B
  3
A4
350
4C
  3
A5
350
4D
  3
A6
350
4E
  3
A7
350
4F
  3
A8
350
50
  3
A9
350
51
  3
B0
350
52
  3
B1
350
53
  3
B2
350
54
  3
B3
350
55
  3
B4
350
56
  3
B5
350
57
  3
B6
350
58
  3
B7
350
59
  3
B8
350
5A
  3
B9
350
5B
  3
C0
350
5C
  3
C1
350
5D
  3
C2
350
5E
  3
C3
350
5F
  3
C4
350
60
  3
C5
350
61
  3
C6
350
62
  3
C7
350
63
  3
C8
350
64
  3
C9
350
65
  3
D0
350
66
  3
D1
350
67
  3
D2
350
68
  0
XRECORD
  5
D1
102
{ACAD_REACTORS
330
C
102
}
330
C
100
AcDbXrecord
280
     1
  1
DWGPROPS COOKIE
  2

  3

  4

  6

  7

  8
b.kav
  9

300
=
301
=
302
=
303
=
304
=
305
=
306
=
307
=
308
=
309
=
 40
0.0
 41
2460608.405360556
 42
2460608.40536066
  1

 90
        0
  0
LAYOUT
  5
1E
102
{ACAD_REACTORS
330
1A
102
}
330
1A
100
AcDbPlotSettings
  1

  2
none_device
  4

  6

 40
0.0
 41
0.0
 42
0.0
 43
0.0
 44
0.0
 45
0.0
 46
0.0
 47
0.0
 48
0.0
 49
0.0
140
0.0
141
0.0
142
1.0
143
1.0
 70
   688
 72
     1
 73
     0
 74
     5
  7

 75
    16
147
1.0
148
0.0
149
0.0
100
AcDbLayout
  1
Layout1
 70
     1
 71
     1
 10
0.0
 20
0.0
 11
420.0
 21
297.0
 12
0.0
 22
0.0
 32
0.0
 14
1.0000000000E+20
 24
1.0000000000E+20
 34
1.0000000000E+20
 15
-1.0000000000E+20
 25
-1.0000000000E+20
 35
-1.0000000000E+20
146
0.0
 13
0.0
 23
0.0
 33
0.0
 16
1.0
 26
0.0
 36
0.0
 17
0.0
 27
1.0
 37
0.0
 76
     0
330
1B
  0
LAYOUT
  5
26
102
{ACAD_REACTORS
330
1A
102
}
330
1A
100
AcDbPlotSettings
  1

  2
none_device
  4

  6

 40
0.0
 41
0.0
 42
0.0
 43
0.0
 44
0.0
 45
0.0
 46
0.0
 47
0.0
 48
0.0
 49
0.0
140
0.0
141
0.0
142
1.0
143
1.0
 70
   688
 72
     1
 73
     0
 74
     5
  7

 75
    16
147
1.0
148
0.0
149
0.0
100
AcDbLayout
  1
Layout2
 70
     1
 71
     2
 10
0.0
 20
0.0
 11
0.0
 21
0.0
 12
0.0
 22
0.0
 32
0.0
 14
0.0
 24
0.0
 34
0.0
 15
0.0
 25
0.0
 35
0.0
146
0.0
 13
0.0
 23
0.0
 33
0.0
 16
1.0
 26
0.0
 36
0.0
 17
0.0
 27
1.0
 37
0.0
 76
     0
330
23
  0
LAYOUT
  5
22
102
{ACAD_REACTORS
330
1A
102
}
330
1A
100
AcDbPlotSettings
  1

  2
none_device
  4
Letter_(8.50_x_11.00_Inches)
  6

 40
6.35
 41
6.35
 42
6.35000508
 43
6.35000508
 44
215.9
 45
279.4
 46
0.0
 47
0.0
 48
0.0
 49
0.0
140
0.0
141
0.0
142
1.0
143
1.0
 70
  1712
 72
     1
 73
     0
 74
     0
  7

 75
     0
147
1.0
148
0.0
149
0.0
100
AcDbLayout
  1
Model
 70
     1
 71
     0
 10
0.0
 20
0.0
 11
279.4
 21
215.9
 12
0.0
 22
0.0
 32
0.0
 14
0.0
 24
0.0
 34
0.0
 15
279.4
 25
215.9
 35
0.0
146
0.0
 13
0.0
 23
0.0
 33
0.0
 16
1.0
 26
0.0
 36
0.0
 17
0.0
 27
1.0
 37
0.0
 76
     0
330
1F
331
29
  0
MLINESTYLE
  5
18
102
{ACAD_REACTORS
330
17
102
}
330
17
100
AcDbMlineStyle
  2
Standard
 70
     0
  3

 62
   256
 51
90.0
 52
90.0
 71
     2
 49
0.5
 62
   256
  6
BYLAYER
 49
-0.5
 62
   256
  6
BYLAYER
  0
ACDBPLACEHOLDER
  5
F
102
{ACAD_REACTORS
330
E
102
}
330
E
  0
SCALE
  5
48
102
{ACAD_REACTORS
330
47
102
}
330
47
100
AcDbScale
 70
     0
300
1:1
140
1.0
141
1.0
290
     1
  0
SCALE
  5
49
102
{ACAD_REACTORS
330
47
102
}
330
47
100
AcDbScale
 70
     0
300
1:2
140
1.0
141
2.0
290
     0
  0
SCALE
  5
4A
102
{ACAD_REACTORS
330
47
102
}
330
47
100
AcDbScale
 70
     0
300
1:4
140
1.0
141
4.0
290
     0
  0
SCALE
  5
4B
102
{ACAD_REACTORS
330
47
102
}
330
47
100
AcDbScale
 70
     0
300
1:5
140
1.0
141
5.0
290
     0
  0
SCALE
  5
4C
102
{ACAD_REACTORS
330
47
102
}
330
47
100
AcDbScale
 70
     0
300
1:8
140
1.0
141
8.0
290
     0
  0
SCALE
  5
4D
102
{ACAD_REACTORS
330
47
102
}
330
47
100
AcDbScale
 70
     0
300
1:10
140
1.0
141
10.0
290
     0
  0
SCALE
  5
4E
102
{ACAD_REACTORS
330
47
102
}
330
47
100
AcDbScale
 70
     0
300
1:16
140
1.0
141
16.0
290
     0
  0
SCALE
  5
4F
102
{ACAD_REACTORS
330
47
102
}
330
47
100
AcDbScale
 70
     0
300
1:20
140
1.0
141
20.0
290
     0
  0
SCALE
  5
50
102
{ACAD_REACTORS
330
47
102
}
330
47
100
AcDbScale
 70
     0
300
1:30
140
1.0
141
30.0
290
     0
  0
SCALE
  5
51
102
{ACAD_REACTORS
330
47
102
}
330
47
100
AcDbScale
 70
     0
300
1:40
140
1.0
141
40.0
290
     0
  0
SCALE
  5
52
102
{ACAD_REACTORS
330
47
102
}
330
47
100
AcDbScale
 70
     0
300
1:50
140
1.0
141
50.0
290
     0
  0
SCALE
  5
53
102
{ACAD_REACTORS
330
47
102
}
330
47
100
AcDbScale
 70
     0
300
1:100
140
1.0
141
100.0
290
     0
  0
SCALE
  5
54
102
{ACAD_REACTORS
330
47
102
}
330
47
100
AcDbScale
 70
     0
300
2:1
140
2.0
141
1.0
290
     0
  0
SCALE
  5
55
102
{ACAD_REACTORS
330
47
102
}
330
47
100
AcDbScale
 70
     0
300
4:1
140
4.0
141
1.0
290
     0
  0
SCALE
  5
56
102
{ACAD_REACTORS
330
47
102
}
330
47
100
AcDbScale
 70
     0
300
8:1
140
8.0
141
1.0
290
     0
  0
SCALE
  5
57
102
{ACAD_REACTORS
330
47
102
}
330
47
100
AcDbScale
 70
     0
300
10:1
140
10.0
141
1.0
290
     0
  0
SCALE
  5
58
102
{ACAD_REACTORS
330
47
102
}
330
47
100
AcDbScale
 70
     0
300
100:1
140
100.0
141
1.0
290
     0
  0
SCALE
  5
59
102
{ACAD_REACTORS
330
47
102
}
330
47
100
AcDbScale
 70
     0
300
1/128" = 1'-0"
140
0.0078125
141
12.0
290
     0
  0
SCALE
  5
5A
102
{ACAD_REACTORS
330
47
102
}
330
47
100
AcDbScale
 70
     0
300
1/64" = 1'-0"
140
0.015625
141
12.0
290
     0
  0
SCALE
  5
5B
102
{ACAD_REACTORS
330
47
102
}
330
47
100
AcDbScale
 70
     0
300
1/32" = 1'-0"
140
0.03125
141
12.0
290
     0
  0
SCALE
  5
5C
102
{ACAD_REACTORS
330
47
102
}
330
47
100
AcDbScale
 70
     0
300
1/16" = 1'-0"
140
0.0625
141
12.0
290
     0
  0
SCALE
  5
5D
102
{ACAD_REACTORS
330
47
102
}
330
47
100
AcDbScale
 70
     0
300
3/32" = 1'-0"
140
0.09375
141
12.0
290
     0
  0
SCALE
  5
5E
102
{ACAD_REACTORS
330
47
102
}
330
47
100
AcDbScale
 70
     0
300
1/8" = 1'-0"
140
0.125
141
12.0
290
     0
  0
SCALE
  5
5F
102
{ACAD_REACTORS
330
47
102
}
330
47
100
AcDbScale
 70
     0
300
3/16" = 1'-0"
140
0.1875
141
12.0
290
     0
  0
SCALE
  5
60
102
{ACAD_REACTORS
330
47
102
}
330
47
100
AcDbScale
 70
     0
300
1/4" = 1'-0"
140
0.25
141
12.0
290
     0
  0
SCALE
  5
61
102
{ACAD_REACTORS
330
47
102
}
330
47
100
AcDbScale
 70
     0
300
3/8" = 1'-0"
140
0.375
141
12.0
290
     0
  0
SCALE
  5
62
102
{ACAD_REACTORS
330
47
102
}
330
47
100
AcDbScale
 70
     0
300
1/2" = 1'-0"
140
0.5
141
12.0
290
     0
  0
SCALE
  5
63
102
{ACAD_REACTORS
330
47
102
}
330
47
100
AcDbScale
 70
     0
300
3/4" = 1'-0"
140
0.75
141
12.0
290
     0
  0
SCALE
  5
64
102
{ACAD_REACTORS
330
47
102
}
330
47
100
AcDbScale
 70
     0
300
1" = 1'-0"
140
1.0
141
12.0
290
     0
  0
SCALE
  5
65
102
{ACAD_REACTORS
330
47
102
}
330
47
100
AcDbScale
 70
     0
300
1-1/2" = 1'-0"
140
1.5
141
12.0
290
     0
  0
SCALE
  5
66
102
{ACAD_REACTORS
330
47
102
}
330
47
100
AcDbScale
 70
     0
300
3" = 1'-0"
140
3.0
141
12.0
290
     0
  0
SCALE
  5
67
102
{ACAD_REACTORS
330
47
102
}
330
47
100
AcDbScale
 70
     0
300
6" = 1'-0"
140
6.0
141
12.0
290
     0
  0
SCALE
  5
68
102
{ACAD_REACTORS
330
47
102
}
330
47
100
AcDbScale
 70
     0
300
1'-0" = 1'-0"
140
12.0
141
12.0
290
     0
  0
ENDSEC
  0
EOF
